ISO-10303-21;
HEADER;
/* Generated by software containing ST-Developer
 * from STEP Tools, Inc. (www.steptools.com) 
 */
/* OPTION: using custom renumber hook */

FILE_DESCRIPTION(
/* description */ ('STEP AP214'),
/* implementation_level */ '2;1');

FILE_NAME(
/* name */ 'STL3002-K10',
/* time_stamp */ '2025-01-04T18:43:55+01:00',
/* author */ ('License CC BY-ND 4.0'),
/* organization */ ('CADENAS'),
/* preprocessor_version */ 'ST-DEVELOPER v19.3',
/* originating_system */ 'PARTsolutions',
/* authorisation */ '  ');

FILE_SCHEMA (('AUTOMOTIVE_DESIGN {1 0 10303 214 3 1 1}'));
ENDSEC;

DATA;
#10=PROPERTY_DEFINITION_REPRESENTATION(#14,#12);
#11=PROPERTY_DEFINITION_REPRESENTATION(#15,#13);
#12=REPRESENTATION('',(#16),#482);
#13=REPRESENTATION('',(#17),#482);
#14=PROPERTY_DEFINITION('pmi validation property','',#487);
#15=PROPERTY_DEFINITION('pmi validation property','',#487);
#16=VALUE_REPRESENTATION_ITEM('number of annotations',COUNT_MEASURE(0.));
#17=VALUE_REPRESENTATION_ITEM('number of views',COUNT_MEASURE(0.));
#18=SHAPE_REPRESENTATION_RELATIONSHIP('','',#336,#19);
#19=ADVANCED_BREP_SHAPE_REPRESENTATION('',(#334),#482);
#20=CONICAL_SURFACE('',#349,1.6,0.0349065850398866);
#21=CONICAL_SURFACE('',#352,1.6,0.0349065850398866);
#22=DRAUGHTING_PRE_DEFINED_COLOUR('black');
#23=CIRCLE('',#341,1.6);
#24=CIRCLE('',#342,1.6);
#25=CIRCLE('',#350,3.34603847458739);
#26=CIRCLE('',#353,3.34603847458739);
#27=ORIENTED_EDGE('',*,*,#87,.T.);
#28=ORIENTED_EDGE('',*,*,#88,.F.);
#29=ORIENTED_EDGE('',*,*,#89,.F.);
#30=ORIENTED_EDGE('',*,*,#90,.T.);
#31=ORIENTED_EDGE('',*,*,#91,.T.);
#32=ORIENTED_EDGE('',*,*,#92,.F.);
#33=ORIENTED_EDGE('',*,*,#93,.F.);
#34=ORIENTED_EDGE('',*,*,#88,.T.);
#35=ORIENTED_EDGE('',*,*,#94,.T.);
#36=ORIENTED_EDGE('',*,*,#95,.T.);
#37=ORIENTED_EDGE('',*,*,#96,.T.);
#38=ORIENTED_EDGE('',*,*,#97,.T.);
#39=ORIENTED_EDGE('',*,*,#98,.T.);
#40=ORIENTED_EDGE('',*,*,#99,.F.);
#41=ORIENTED_EDGE('',*,*,#100,.F.);
#42=ORIENTED_EDGE('',*,*,#92,.T.);
#43=ORIENTED_EDGE('',*,*,#101,.T.);
#44=ORIENTED_EDGE('',*,*,#102,.F.);
#45=ORIENTED_EDGE('',*,*,#103,.F.);
#46=ORIENTED_EDGE('',*,*,#99,.T.);
#47=ORIENTED_EDGE('',*,*,#104,.T.);
#48=ORIENTED_EDGE('',*,*,#105,.F.);
#49=ORIENTED_EDGE('',*,*,#106,.F.);
#50=ORIENTED_EDGE('',*,*,#102,.T.);
#51=ORIENTED_EDGE('',*,*,#107,.T.);
#52=ORIENTED_EDGE('',*,*,#90,.F.);
#53=ORIENTED_EDGE('',*,*,#108,.F.);
#54=ORIENTED_EDGE('',*,*,#105,.T.);
#55=ORIENTED_EDGE('',*,*,#89,.T.);
#56=ORIENTED_EDGE('',*,*,#93,.T.);
#57=ORIENTED_EDGE('',*,*,#100,.T.);
#58=ORIENTED_EDGE('',*,*,#103,.T.);
#59=ORIENTED_EDGE('',*,*,#106,.T.);
#60=ORIENTED_EDGE('',*,*,#108,.T.);
#61=ORIENTED_EDGE('',*,*,#87,.F.);
#62=ORIENTED_EDGE('',*,*,#107,.F.);
#63=ORIENTED_EDGE('',*,*,#104,.F.);
#64=ORIENTED_EDGE('',*,*,#101,.F.);
#65=ORIENTED_EDGE('',*,*,#98,.F.);
#66=ORIENTED_EDGE('',*,*,#91,.F.);
#67=ORIENTED_EDGE('',*,*,#95,.F.);
#68=ORIENTED_EDGE('',*,*,#109,.F.);
#69=ORIENTED_EDGE('',*,*,#110,.T.);
#70=ORIENTED_EDGE('',*,*,#111,.T.);
#71=ORIENTED_EDGE('',*,*,#96,.F.);
#72=ORIENTED_EDGE('',*,*,#111,.F.);
#73=ORIENTED_EDGE('',*,*,#112,.T.);
#74=ORIENTED_EDGE('',*,*,#113,.T.);
#75=ORIENTED_EDGE('',*,*,#97,.F.);
#76=ORIENTED_EDGE('',*,*,#113,.F.);
#77=ORIENTED_EDGE('',*,*,#114,.T.);
#78=ORIENTED_EDGE('',*,*,#115,.T.);
#79=ORIENTED_EDGE('',*,*,#94,.F.);
#80=ORIENTED_EDGE('',*,*,#115,.F.);
#81=ORIENTED_EDGE('',*,*,#116,.T.);
#82=ORIENTED_EDGE('',*,*,#109,.T.);
#83=ORIENTED_EDGE('',*,*,#110,.F.);
#84=ORIENTED_EDGE('',*,*,#116,.F.);
#85=ORIENTED_EDGE('',*,*,#114,.F.);
#86=ORIENTED_EDGE('',*,*,#112,.F.);
#87=EDGE_CURVE('',#117,#118,#137,.T.);
#88=EDGE_CURVE('',#119,#118,#138,.T.);
#89=EDGE_CURVE('',#120,#119,#139,.T.);
#90=EDGE_CURVE('',#120,#117,#140,.T.);
#91=EDGE_CURVE('',#118,#121,#141,.T.);
#92=EDGE_CURVE('',#122,#121,#142,.T.);
#93=EDGE_CURVE('',#119,#122,#143,.T.);
#94=EDGE_CURVE('',#123,#124,#23,.T.);
#95=EDGE_CURVE('',#124,#125,#144,.T.);
#96=EDGE_CURVE('',#125,#126,#24,.T.);
#97=EDGE_CURVE('',#126,#123,#145,.T.);
#98=EDGE_CURVE('',#121,#127,#146,.T.);
#99=EDGE_CURVE('',#128,#127,#147,.T.);
#100=EDGE_CURVE('',#122,#128,#148,.T.);
#101=EDGE_CURVE('',#127,#129,#149,.T.);
#102=EDGE_CURVE('',#130,#129,#150,.T.);
#103=EDGE_CURVE('',#128,#130,#151,.T.);
#104=EDGE_CURVE('',#129,#131,#152,.T.);
#105=EDGE_CURVE('',#132,#131,#153,.T.);
#106=EDGE_CURVE('',#130,#132,#154,.T.);
#107=EDGE_CURVE('',#131,#117,#155,.T.);
#108=EDGE_CURVE('',#132,#120,#156,.T.);
#109=EDGE_CURVE('',#133,#124,#157,.T.);
#110=EDGE_CURVE('',#133,#134,#158,.F.);
#111=EDGE_CURVE('',#134,#125,#159,.T.);
#112=EDGE_CURVE('',#134,#135,#25,.T.);
#113=EDGE_CURVE('',#135,#126,#160,.T.);
#114=EDGE_CURVE('',#135,#136,#161,.F.);
#115=EDGE_CURVE('',#136,#123,#162,.T.);
#116=EDGE_CURVE('',#136,#133,#26,.T.);
#117=VERTEX_POINT('',#420);
#118=VERTEX_POINT('',#421);
#119=VERTEX_POINT('',#423);
#120=VERTEX_POINT('',#425);
#121=VERTEX_POINT('',#429);
#122=VERTEX_POINT('',#431);
#123=VERTEX_POINT('',#435);
#124=VERTEX_POINT('',#436);
#125=VERTEX_POINT('',#438);
#126=VERTEX_POINT('',#440);
#127=VERTEX_POINT('',#443);
#128=VERTEX_POINT('',#445);
#129=VERTEX_POINT('',#449);
#130=VERTEX_POINT('',#451);
#131=VERTEX_POINT('',#455);
#132=VERTEX_POINT('',#457);
#133=VERTEX_POINT('',#466);
#134=VERTEX_POINT('',#468);
#135=VERTEX_POINT('',#472);
#136=VERTEX_POINT('',#476);
#137=LINE('',#419,#163);
#138=LINE('',#422,#164);
#139=LINE('',#424,#165);
#140=LINE('',#426,#166);
#141=LINE('',#428,#167);
#142=LINE('',#430,#168);
#143=LINE('',#432,#169);
#144=LINE('',#437,#170);
#145=LINE('',#441,#171);
#146=LINE('',#442,#172);
#147=LINE('',#444,#173);
#148=LINE('',#446,#174);
#149=LINE('',#448,#175);
#150=LINE('',#450,#176);
#151=LINE('',#452,#177);
#152=LINE('',#454,#178);
#153=LINE('',#456,#179);
#154=LINE('',#458,#180);
#155=LINE('',#460,#181);
#156=LINE('',#461,#182);
#157=LINE('',#465,#183);
#158=LINE('',#467,#184);
#159=LINE('',#469,#185);
#160=LINE('',#473,#186);
#161=LINE('',#475,#187);
#162=LINE('',#477,#188);
#163=VECTOR('',#359,1000.);
#164=VECTOR('',#360,1000.);
#165=VECTOR('',#361,1000.);
#166=VECTOR('',#362,1000.);
#167=VECTOR('',#365,1000.);
#168=VECTOR('',#366,1000.);
#169=VECTOR('',#367,1000.);
#170=VECTOR('',#372,1000.);
#171=VECTOR('',#375,1000.);
#172=VECTOR('',#376,1000.);
#173=VECTOR('',#377,1000.);
#174=VECTOR('',#378,1000.);
#175=VECTOR('',#381,1000.);
#176=VECTOR('',#382,1000.);
#177=VECTOR('',#383,1000.);
#178=VECTOR('',#386,1000.);
#179=VECTOR('',#387,1000.);
#180=VECTOR('',#388,1000.);
#181=VECTOR('',#391,1000.);
#182=VECTOR('',#392,1000.);
#183=VECTOR('',#399,1000.);
#184=VECTOR('',#400,1000.);
#185=VECTOR('',#401,1000.);
#186=VECTOR('',#406,1000.);
#187=VECTOR('',#409,1000.);
#188=VECTOR('',#410,1000.);
#189=EDGE_LOOP('',(#27,#28,#29,#30));
#190=EDGE_LOOP('',(#31,#32,#33,#34));
#191=EDGE_LOOP('',(#35,#36,#37,#38));
#192=EDGE_LOOP('',(#39,#40,#41,#42));
#193=EDGE_LOOP('',(#43,#44,#45,#46));
#194=EDGE_LOOP('',(#47,#48,#49,#50));
#195=EDGE_LOOP('',(#51,#52,#53,#54));
#196=EDGE_LOOP('',(#55,#56,#57,#58,#59,#60));
#197=EDGE_LOOP('',(#61,#62,#63,#64,#65,#66));
#198=EDGE_LOOP('',(#67,#68,#69,#70));
#199=EDGE_LOOP('',(#71,#72,#73,#74));
#200=EDGE_LOOP('',(#75,#76,#77,#78));
#201=EDGE_LOOP('',(#79,#80,#81,#82));
#202=EDGE_LOOP('',(#83,#84,#85,#86));
#203=FACE_BOUND('',#189,.T.);
#204=FACE_BOUND('',#190,.T.);
#205=FACE_BOUND('',#191,.T.);
#206=FACE_BOUND('',#192,.T.);
#207=FACE_BOUND('',#193,.T.);
#208=FACE_BOUND('',#194,.T.);
#209=FACE_BOUND('',#195,.T.);
#210=FACE_BOUND('',#196,.T.);
#211=FACE_BOUND('',#197,.T.);
#212=FACE_BOUND('',#198,.T.);
#213=FACE_BOUND('',#199,.T.);
#214=FACE_BOUND('',#200,.T.);
#215=FACE_BOUND('',#201,.T.);
#216=FACE_BOUND('',#202,.T.);
#217=PLANE('',#338);
#218=PLANE('',#339);
#219=PLANE('',#340);
#220=PLANE('',#343);
#221=PLANE('',#344);
#222=PLANE('',#345);
#223=PLANE('',#346);
#224=PLANE('',#347);
#225=PLANE('',#348);
#226=PLANE('',#351);
#227=PLANE('',#354);
#228=STYLED_ITEM('',(#241),#320);
#229=STYLED_ITEM('',(#242),#321);
#230=STYLED_ITEM('',(#243),#322);
#231=STYLED_ITEM('',(#244),#323);
#232=STYLED_ITEM('',(#245),#324);
#233=STYLED_ITEM('',(#246),#325);
#234=STYLED_ITEM('',(#247),#326);
#235=STYLED_ITEM('',(#248),#327);
#236=STYLED_ITEM('',(#249),#328);
#237=STYLED_ITEM('',(#250),#329);
#238=STYLED_ITEM('',(#251),#330);
#239=STYLED_ITEM('',(#252),#331);
#240=STYLED_ITEM('',(#253),#332);
#241=PRESENTATION_STYLE_ASSIGNMENT((#254));
#242=PRESENTATION_STYLE_ASSIGNMENT((#255));
#243=PRESENTATION_STYLE_ASSIGNMENT((#256));
#244=PRESENTATION_STYLE_ASSIGNMENT((#257));
#245=PRESENTATION_STYLE_ASSIGNMENT((#258));
#246=PRESENTATION_STYLE_ASSIGNMENT((#259));
#247=PRESENTATION_STYLE_ASSIGNMENT((#260));
#248=PRESENTATION_STYLE_ASSIGNMENT((#261));
#249=PRESENTATION_STYLE_ASSIGNMENT((#262));
#250=PRESENTATION_STYLE_ASSIGNMENT((#263));
#251=PRESENTATION_STYLE_ASSIGNMENT((#264));
#252=PRESENTATION_STYLE_ASSIGNMENT((#265));
#253=PRESENTATION_STYLE_ASSIGNMENT((#266));
#254=SURFACE_STYLE_USAGE(.BOTH.,#267);
#255=SURFACE_STYLE_USAGE(.BOTH.,#268);
#256=SURFACE_STYLE_USAGE(.BOTH.,#269);
#257=SURFACE_STYLE_USAGE(.BOTH.,#270);
#258=SURFACE_STYLE_USAGE(.BOTH.,#271);
#259=SURFACE_STYLE_USAGE(.BOTH.,#272);
#260=SURFACE_STYLE_USAGE(.BOTH.,#273);
#261=SURFACE_STYLE_USAGE(.BOTH.,#274);
#262=SURFACE_STYLE_USAGE(.BOTH.,#275);
#263=SURFACE_STYLE_USAGE(.BOTH.,#276);
#264=SURFACE_STYLE_USAGE(.BOTH.,#277);
#265=SURFACE_STYLE_USAGE(.BOTH.,#278);
#266=SURFACE_STYLE_USAGE(.BOTH.,#279);
#267=SURFACE_SIDE_STYLE('',(#280));
#268=SURFACE_SIDE_STYLE('',(#281));
#269=SURFACE_SIDE_STYLE('',(#282));
#270=SURFACE_SIDE_STYLE('',(#283));
#271=SURFACE_SIDE_STYLE('',(#284));
#272=SURFACE_SIDE_STYLE('',(#285));
#273=SURFACE_SIDE_STYLE('',(#286));
#274=SURFACE_SIDE_STYLE('',(#287));
#275=SURFACE_SIDE_STYLE('',(#288));
#276=SURFACE_SIDE_STYLE('',(#289));
#277=SURFACE_SIDE_STYLE('',(#290));
#278=SURFACE_SIDE_STYLE('',(#291));
#279=SURFACE_SIDE_STYLE('',(#292));
#280=SURFACE_STYLE_FILL_AREA(#293);
#281=SURFACE_STYLE_FILL_AREA(#294);
#282=SURFACE_STYLE_FILL_AREA(#295);
#283=SURFACE_STYLE_FILL_AREA(#296);
#284=SURFACE_STYLE_FILL_AREA(#297);
#285=SURFACE_STYLE_FILL_AREA(#298);
#286=SURFACE_STYLE_FILL_AREA(#299);
#287=SURFACE_STYLE_FILL_AREA(#300);
#288=SURFACE_STYLE_FILL_AREA(#301);
#289=SURFACE_STYLE_FILL_AREA(#302);
#290=SURFACE_STYLE_FILL_AREA(#303);
#291=SURFACE_STYLE_FILL_AREA(#304);
#292=SURFACE_STYLE_FILL_AREA(#305);
#293=FILL_AREA_STYLE('',(#306));
#294=FILL_AREA_STYLE('',(#307));
#295=FILL_AREA_STYLE('',(#308));
#296=FILL_AREA_STYLE('',(#309));
#297=FILL_AREA_STYLE('',(#310));
#298=FILL_AREA_STYLE('',(#311));
#299=FILL_AREA_STYLE('',(#312));
#300=FILL_AREA_STYLE('',(#313));
#301=FILL_AREA_STYLE('',(#314));
#302=FILL_AREA_STYLE('',(#315));
#303=FILL_AREA_STYLE('',(#316));
#304=FILL_AREA_STYLE('',(#317));
#305=FILL_AREA_STYLE('',(#318));
#306=FILL_AREA_STYLE_COLOUR('',#319);
#307=FILL_AREA_STYLE_COLOUR('',#319);
#308=FILL_AREA_STYLE_COLOUR('',#319);
#309=FILL_AREA_STYLE_COLOUR('',#319);
#310=FILL_AREA_STYLE_COLOUR('',#319);
#311=FILL_AREA_STYLE_COLOUR('',#319);
#312=FILL_AREA_STYLE_COLOUR('',#319);
#313=FILL_AREA_STYLE_COLOUR('',#319);
#314=FILL_AREA_STYLE_COLOUR('',#22);
#315=FILL_AREA_STYLE_COLOUR('',#22);
#316=FILL_AREA_STYLE_COLOUR('',#22);
#317=FILL_AREA_STYLE_COLOUR('',#22);
#318=FILL_AREA_STYLE_COLOUR('',#22);
#319=COLOUR_RGB('',0.75294119119644,0.75294119119644,0.75294119119644);
#320=ADVANCED_FACE('',(#203),#217,.F.);
#321=ADVANCED_FACE('',(#204),#218,.F.);
#322=ADVANCED_FACE('',(#205,#206),#219,.F.);
#323=ADVANCED_FACE('',(#207),#220,.F.);
#324=ADVANCED_FACE('',(#208),#221,.F.);
#325=ADVANCED_FACE('',(#209),#222,.F.);
#326=ADVANCED_FACE('',(#210),#223,.T.);
#327=ADVANCED_FACE('',(#211),#224,.F.);
#328=ADVANCED_FACE('',(#212),#225,.F.);
#329=ADVANCED_FACE('',(#213),#20,.T.);
#330=ADVANCED_FACE('',(#214),#226,.F.);
#331=ADVANCED_FACE('',(#215),#21,.T.);
#332=ADVANCED_FACE('',(#216),#227,.F.);
#333=CLOSED_SHELL('',(#320,#321,#322,#323,#324,#325,#326,#327,#328,#329,
#330,#331,#332));
#334=MANIFOLD_SOLID_BREP('STL3002-K10',#333);
#335=SHAPE_DEFINITION_REPRESENTATION(#487,#336);
#336=SHAPE_REPRESENTATION('STL3002-K10',(#337),#482);
#337=AXIS2_PLACEMENT_3D('',#417,#355,#356);
#338=AXIS2_PLACEMENT_3D('',#418,#357,#358);
#339=AXIS2_PLACEMENT_3D('',#427,#363,#364);
#340=AXIS2_PLACEMENT_3D('',#433,#368,#369);
#341=AXIS2_PLACEMENT_3D('',#434,#370,#371);
#342=AXIS2_PLACEMENT_3D('',#439,#373,#374);
#343=AXIS2_PLACEMENT_3D('',#447,#379,#380);
#344=AXIS2_PLACEMENT_3D('',#453,#384,#385);
#345=AXIS2_PLACEMENT_3D('',#459,#389,#390);
#346=AXIS2_PLACEMENT_3D('',#462,#393,#394);
#347=AXIS2_PLACEMENT_3D('',#463,#395,#396);
#348=AXIS2_PLACEMENT_3D('',#464,#397,#398);
#349=AXIS2_PLACEMENT_3D('',#470,#402,#403);
#350=AXIS2_PLACEMENT_3D('',#471,#404,#405);
#351=AXIS2_PLACEMENT_3D('',#474,#407,#408);
#352=AXIS2_PLACEMENT_3D('',#478,#411,#412);
#353=AXIS2_PLACEMENT_3D('',#479,#413,#414);
#354=AXIS2_PLACEMENT_3D('',#480,#415,#416);
#355=DIRECTION('',(0.,0.,1.));
#356=DIRECTION('',(1.,0.,0.));
#357=DIRECTION('',(0.,-1.,0.));
#358=DIRECTION('',(0.,0.,-1.));
#359=DIRECTION('',(0.,0.,1.));
#360=DIRECTION('',(-1.,0.,0.));
#361=DIRECTION('',(0.,0.,1.));
#362=DIRECTION('',(-1.,0.,0.));
#363=DIRECTION('',(0.,0.,-1.));
#364=DIRECTION('',(-1.,0.,0.));
#365=DIRECTION('',(0.,-1.,0.));
#366=DIRECTION('',(-1.,0.,0.));
#367=DIRECTION('',(0.,-1.,0.));
#368=DIRECTION('',(0.,1.,0.));
#369=DIRECTION('',(0.,0.,1.));
#370=DIRECTION('',(0.,1.,0.));
#371=DIRECTION('',(1.,0.,0.));
#372=DIRECTION('',(-1.,0.,0.));
#373=DIRECTION('',(0.,1.,0.));
#374=DIRECTION('',(1.,0.,0.));
#375=DIRECTION('',(1.,0.,0.));
#376=DIRECTION('',(0.,0.,-1.));
#377=DIRECTION('',(-1.,0.,0.));
#378=DIRECTION('',(0.,0.,-1.));
#379=DIRECTION('',(0.,0.,1.));
#380=DIRECTION('',(1.,0.,0.));
#381=DIRECTION('',(0.,1.,0.));
#382=DIRECTION('',(-1.,0.,0.));
#383=DIRECTION('',(0.,1.,0.));
#384=DIRECTION('',(0.,-1.,0.));
#385=DIRECTION('',(0.,0.,-1.));
#386=DIRECTION('',(0.,0.,1.));
#387=DIRECTION('',(-1.,0.,0.));
#388=DIRECTION('',(0.,0.,1.));
#389=DIRECTION('',(0.,0.,-1.));
#390=DIRECTION('',(-1.,0.,0.));
#391=DIRECTION('',(0.,-1.,0.));
#392=DIRECTION('',(0.,-1.,0.));
#393=DIRECTION('',(1.,0.,0.));
#394=DIRECTION('',(0.,0.,-1.));
#395=DIRECTION('',(1.,0.,0.));
#396=DIRECTION('',(0.,0.,-1.));
#397=DIRECTION('',(0.,-0.034899496702501,0.999390827019096));
#398=DIRECTION('',(0.,-0.999390827019096,-0.034899496702501));
#399=DIRECTION('',(0.,0.999390827019096,0.034899496702501));
#400=DIRECTION('',(1.,0.,0.));
#401=DIRECTION('',(0.,0.999390827019096,0.034899496702501));
#402=DIRECTION('',(0.,-1.,0.));
#403=DIRECTION('',(1.,0.,0.));
#404=DIRECTION('',(0.,1.,0.));
#405=DIRECTION('',(0.,0.,1.));
#406=DIRECTION('',(0.,0.999390827019096,-0.034899496702501));
#407=DIRECTION('',(0.,-0.034899496702501,-0.999390827019096));
#408=DIRECTION('',(0.,0.999390827019096,-0.034899496702501));
#409=DIRECTION('',(-1.,0.,0.));
#410=DIRECTION('',(0.,0.999390827019096,-0.034899496702501));
#411=DIRECTION('',(0.,-1.,0.));
#412=DIRECTION('',(1.,0.,0.));
#413=DIRECTION('',(0.,1.,0.));
#414=DIRECTION('',(0.,0.,1.));
#415=DIRECTION('',(0.,1.,0.));
#416=DIRECTION('',(0.,0.,1.));
#417=CARTESIAN_POINT('',(0.,0.,0.));
#418=CARTESIAN_POINT('',(1000.,7.,-1.));
#419=CARTESIAN_POINT('',(0.,7.,-1.));
#420=CARTESIAN_POINT('',(0.,7.,-1.));
#421=CARTESIAN_POINT('',(0.,7.,3.));
#422=CARTESIAN_POINT('',(1000.,7.,3.));
#423=CARTESIAN_POINT('',(1000.,7.,3.));
#424=CARTESIAN_POINT('',(1000.,7.,-1.));
#425=CARTESIAN_POINT('',(1000.,7.,-1.));
#426=CARTESIAN_POINT('',(1000.,7.,-1.));
#427=CARTESIAN_POINT('',(1000.,7.,3.));
#428=CARTESIAN_POINT('',(0.,7.,3.));
#429=CARTESIAN_POINT('',(0.,0.,3.));
#430=CARTESIAN_POINT('',(1000.,0.,3.));
#431=CARTESIAN_POINT('',(1000.,0.,3.));
#432=CARTESIAN_POINT('',(1000.,7.,3.));
#433=CARTESIAN_POINT('',(1000.,0.,3.));
#434=CARTESIAN_POINT('',(996.,0.,2.16840434497101E-16));
#435=CARTESIAN_POINT('',(996.,0.,1.6));
#436=CARTESIAN_POINT('',(996.,0.,-1.6));
#437=CARTESIAN_POINT('',(996.,0.,-1.6));
#438=CARTESIAN_POINT('',(4.,0.,-1.6));
#439=CARTESIAN_POINT('',(4.,0.,0.));
#440=CARTESIAN_POINT('',(4.,0.,1.6));
#441=CARTESIAN_POINT('',(4.,0.,1.6));
#442=CARTESIAN_POINT('',(0.,0.,3.));
#443=CARTESIAN_POINT('',(0.,0.,-3.));
#444=CARTESIAN_POINT('',(1000.,0.,-3.));
#445=CARTESIAN_POINT('',(1000.,0.,-3.));
#446=CARTESIAN_POINT('',(1000.,0.,3.));
#447=CARTESIAN_POINT('',(1000.,0.,-3.));
#448=CARTESIAN_POINT('',(0.,0.,-3.));
#449=CARTESIAN_POINT('',(0.,20.,-3.));
#450=CARTESIAN_POINT('',(1000.,20.,-3.));
#451=CARTESIAN_POINT('',(1000.,20.,-3.));
#452=CARTESIAN_POINT('',(1000.,0.,-3.));
#453=CARTESIAN_POINT('',(1000.,20.,-3.));
#454=CARTESIAN_POINT('',(0.,20.,-3.));
#455=CARTESIAN_POINT('',(0.,20.,-1.));
#456=CARTESIAN_POINT('',(1000.,20.,-1.));
#457=CARTESIAN_POINT('',(1000.,20.,-1.));
#458=CARTESIAN_POINT('',(1000.,20.,-3.));
#459=CARTESIAN_POINT('',(1000.,20.,-1.));
#460=CARTESIAN_POINT('',(0.,20.,-1.));
#461=CARTESIAN_POINT('',(1000.,20.,-1.));
#462=CARTESIAN_POINT('',(1000.,0.,0.));
#463=CARTESIAN_POINT('',(0.,0.,0.));
#464=CARTESIAN_POINT('',(996.,0.,-1.6));
#465=CARTESIAN_POINT('',(996.,0.,-1.6));
#466=CARTESIAN_POINT('',(996.,-50.,-3.34603847458739));
#467=CARTESIAN_POINT('',(4.,-50.,-3.34603847458739));
#468=CARTESIAN_POINT('',(4.,-50.,-3.34603847458739));
#469=CARTESIAN_POINT('',(4.,0.,-1.6));
#470=CARTESIAN_POINT('',(4.,0.,0.));
#471=CARTESIAN_POINT('',(4.,-50.,0.));
#472=CARTESIAN_POINT('',(4.,-50.,3.34603847458739));
#473=CARTESIAN_POINT('',(4.,0.,1.6));
#474=CARTESIAN_POINT('',(4.,0.,1.6));
#475=CARTESIAN_POINT('',(4.,-50.,3.34603847458739));
#476=CARTESIAN_POINT('',(996.,-50.,3.34603847458739));
#477=CARTESIAN_POINT('',(996.,0.,1.6));
#478=CARTESIAN_POINT('',(996.,0.,2.16840434497101E-16));
#479=CARTESIAN_POINT('',(996.,-50.,2.16840434497101E-16));
#480=CARTESIAN_POINT('',(4.,-50.,0.));
#481=MECHANICAL_DESIGN_GEOMETRIC_PRESENTATION_REPRESENTATION('',(#228,#229,
#230,#231,#232,#233,#234,#235,#236,#237,#238,#239,#240),#482);
#482=(
GEOMETRIC_REPRESENTATION_CONTEXT(3)
GLOBAL_UNCERTAINTY_ASSIGNED_CONTEXT((#483))
GLOBAL_UNIT_ASSIGNED_CONTEXT((#486,#485,#484))
REPRESENTATION_CONTEXT('STL3002-K10','TOP_LEVEL_ASSEMBLY_PART')
);
#483=UNCERTAINTY_MEASURE_WITH_UNIT(LENGTH_MEASURE(0.005),#486,
'DISTANCE_ACCURACY_VALUE','Maximum Tolerance applied to model');
#484=(
NAMED_UNIT(*)
SI_UNIT($,.STERADIAN.)
SOLID_ANGLE_UNIT()
);
#485=(
NAMED_UNIT(*)
PLANE_ANGLE_UNIT()
SI_UNIT($,.RADIAN.)
);
#486=(
LENGTH_UNIT()
NAMED_UNIT(*)
SI_UNIT(.MILLI.,.METRE.)
);
#487=PRODUCT_DEFINITION_SHAPE('','',#488);
#488=PRODUCT_DEFINITION('','',#490,#489);
#489=PRODUCT_DEFINITION_CONTEXT('',#496,'design');
#490=PRODUCT_DEFINITION_FORMATION_WITH_SPECIFIED_SOURCE('','',#492,
 .NOT_KNOWN.);
#491=PRODUCT_RELATED_PRODUCT_CATEGORY('','',(#492));
#492=PRODUCT('STL3002-K10','STL3002-K10','STL3002-K10',(#494));
#493=PRODUCT_CATEGORY('','');
#494=PRODUCT_CONTEXT('',#496,'mechanical');
#495=APPLICATION_PROTOCOL_DEFINITION('international standard',
'automotive_design',2010,#496);
#496=APPLICATION_CONTEXT(
'core data for automotive mechanical design processes');
ENDSEC;
END-ISO-10303-21;
